Liederbuch/ Basis-Picking-Etude

Aus Wikibooks
Zur Navigation springen Zur Suche springen

Übung für das Balladendiplom

Basic-Picking 1a.svg
  D
||-------2-------2-|-------2-------2-||
||---3-------3-----|---3-------3-----||
||-----2-------2---|-----2-------2---||
||-0-------0-------|-0-------0-------||
||-----------------|-----------------||
||-----------------|-----------------||
   G/D (D-Dur-Akkord im 7. Bund)
||-------7-------7-|-------7-------7-||   
||---8-------8-----|---8-------8-----||   
||-----7-------7---|-----7-------7---||   
||-0-------0-------|-0-------0-------||   
||-----------------|-----------------||   
||-----------------|-----------------||   
   Dm7 (F/D) (D-Dur-Akkord im 5. Bund)
||-------5-------5-|-------5-------5-||
||---6-------6-----|---6-------6-----||
||-----5-------5---|-----5-------5---||
||-0-------0-------|-0-------0-------||
||-----------------|-----------------||
||-----------------|-----------------||
 Ebj7/D(Eb/Db) (D-Dur-Akkord im 3. Bund)                     
||-------3-------3-|-------3-------3-|| 
||---4-------4-----|---4-------4-----|| 
||-----3-------3---|-----3-------3---|| 
||-0-------0-------|-0-------0-------|| 
||-----------------|-----------------|| 
||-----------------|-----------------|| 
  D
||-------2-------2-|-------2-------2-||
||---3-------3-----|---3-------3-----||
||-----2-------2---|-----2-------2---||
||-0-------0-------|-0-------0-------||
||-----------------|-----------------||
||-----------------|-----------------||

Basis-Picking-Etude.mid (info)

Crystal Clear mimetype pdf.png Basis-Picking-Etude.pdf (info)