Adventskalender 2006: Türchen 1

Aus Wikibooks
Zur Navigation springen Zur Suche springen

LEISE RIESELT DER SCHNEE Volkslied von Eduard Ebel (*1839 - †1905)[Bearbeiten]

Arranged by Michael (ursprünglich für www.gitarrenboard.de)

Ein Weihnachtslied für Gesang, als Gitarren-Duett und als Solo
1. Strophe (mit Bim-Bam-Basstönen)
C Leise G rieselt der C Schnee C/G .
F/C Still und F starr liegt der C See, C/G
G/B Weihnachtlich G7 glänzet der A Wald Am/G :
Dm Freue dich, G/B Christkind kommt C bald! C/G


2. Strophe (vereinfachte Akkorde)
C In den G Herzen wird's C warm,
F still schweigt Kummer und C Harm,
G Sorge des G7 Lebens ver- Am hallt:
Dm7 Freue dich, G7 Christkind kommt C bald!


3. Strophe (mit Basslauf: die einzelnen Basstöne sind jeweisl unter dem Slash: / )
/G /A /B- C Bald ist G heilige C Nacht,
/C /D /E- F Chor der /F En-/E gel /D er- C wacht,
/C /B /A- G hört nur wie /G lieb- /A lich /B es C schallt:
Dm7 Freue dich, /G Christ- /A kind /B kommt C bald!







Duett[Bearbeiten]

GtrI = Melodie Solo; GtrII = einfache Zupfbegleitung

Erste Takte und Zwischenspiel ergibt ein "Bim-Bam" was sich in den Basstönen wieder spiegelt.
Die Buchstaben unter dem Bruchstrich sind Bass-Töne, die sich aber sehr einfach aus der Tabulatur erschließen lassen.
    C        C/G        C             G             C             C/G
  6/8  Gtr I
||---------|---------||-0-----0-----|-------0-----|-------------|----------------|
||o--------|--------o||-------------|-3-------3---|-1-----------|-(1)------------|
||---------|---------||-------------|-------------|-------------|----------------|
||---------|---------||-------------|-------------|-------------|----------------|
||o--------|--------o||-------------|-------------|-------------|----------------|
||---------|---------||-------------|-------------|-------------|----------------|
||                   ||                                                          |
||  Gtr II           ||                                                          |
||--0------|---------||-------0-----|-------3-----|-------0-----|---------0------|
||o-1------|-1------o||-----1---1---|-----0---0---|-----1---1---|-------1---1----|
||--0------|-0-------||---0-------0-|---0-------0-|---0-------0-|-----0-------0--|
||---------|-2-------||-------------|-------------|-------------|----------------|
||o-3------|--------o||-3-----------|-------------|-3-----------|----------------|
||---------|-3-------||-------------|-3-----------|-------------|--3-------------|

  F/C           F             C             C/G
|-------------|-------------|-------------|----------------|
|-1-----------|-1-----0-----|-------------|----------------|
|---------2---|---------2---|-0-----------|-(0)------------|
|-------------|-------------|-------------|----------------|
|-------------|-------------|-------------|----------------|
|-------------|-------------|-------------|----------------|
|                                                          |
|-------1-----|-------1-----|-------0-----|---------0------|
|-----1---1---|-----1---1---|-----1---1---|-------1---1----|
|---2-------2-|---2-------2-|---0-------0-|-----0-------0--|
|-------------|-3-----------|-------------|----------------|
|-3-----------|-------------|-3-----------|----------------|
|-------------|-------------|-------------|--3-------------|

  G/B           G7            Am            Am/G
|-------------|-1---0-------|-------------|----------------|
|-3---2---3---|---------3---|-1-----------|-(1)------------|
|-------------|-------------|-------------|----------------|
|-------------|-------------|-------------|----------------|
|-------------|-------------|-------------|----------------|
|-------------|-------------|-------------|----------------|
|                                                          |
|-------3-----|-------1-----|-------0-----|---------0------|
|-----0---0---|-----0---0---|-----1---1---|-------1---1----|
|---0-------0-|---0-------0-|---2-------2-|-----2-------2--|
|-------------|-------------|-------------|----------------|
|-2-----------|-------------|-0-----------|----------------|
|-------------|-3-----------|-------------|--3-------------|

  Dm7           G/B           C             C/G
|-------------|-------------|-------------|----------------|
|-3-----------|-0---0-------|-1-----------|-(1)------------|
|-------2---2-|---2---------|-------------|----------------|
|-------------|-------------|-------------|----------------|
|-------------|-------------|-------------|----------------|
|-------------|-------------|-------------|----------------|
|                                                          |
|-------1-----|-------3-----|-------0-----|---------0------|
|-----1---1---|-----0---0---|-----1---1---|-------1---1----|
|---2-------2-|---0-------0-|---0-------0-|-----0-------0--|
|-0-----------|-------------|-------------|----------------|
|-------------|-2-----------|-3-----------|----------------|
|-------------|-------------|-------------|--3-------------|







Solo[Bearbeiten]

    C        C/G        C          G          C        C/G
    Gtr III
||--0------|---------||-^0----0--|----0-----|--------|------------|
||o-1------|-1------o||-^1-------|-3-----3--|-1------|-(1)--------|
||--0------|-0-------||-^0-------|----------|-0------|------------|
||---------|-2-------||-^2-------|----------|-2------|------------|
||o-3------|--------o||-^3-------|----------|-3------|------------|
||---------|-3-------||----------|-3--------|--------|--3---------|

  F/C        F          C        C/G
|----------|----------|--------|--------|
|-^1-------|-1--0-----|--------|--------|
|-^2----2--|-------2--|-0------|-(0)----|
|-^3-------|-3--------|-2------|--------|
|-^3-------|----------|-3------|--------|
|----------|----------|--------|--3-----|

  G/B         G7         Am       Am/G
|-----------|-1--0-----|--------|----------|
|-^3--2--3--|-------3--|-1------|-(1)------|
|-^0--------|----------|-2------|----------|
|-^0--------|----------|-2------|----------|
|-^2--------|----------|-0------|----------|
|-----------|-3--------|--------|--3-------|
                                   
  Dm          G/B        C        C/G    D.C. al Fine
|-----------|----------|--------|------------||--
|-^3--------|-0-----0--|-1------|-(1)--------||--
|-^2---2-2--|----2-----|-0------|------------||--
|-^0--------|----------|-2------|------------||--
|-----------|-2--------|-3------|------0--2--||--
|-----------|----------|--------|--3---------||--

                                            Fine
|-0------|--------|-0------|--------|----------*|
|-1------|-1------|-1------|-1------|-^1-------*|
|-0------|-0------|-0------|-0------|-^0-------*|
|--------|-2------|--------|-2------|-^2-------*|
|-3------|--------|-3------|--------|-^3-------*|
|--------|-3------|--------|-3------|----------*|

Dieses Arrangement sowie das Midi fällt unter

Some rights reserved
Creative Commons Attribution iconCreative Commons Share Alike icon

Dieses Bild wird unter den Bedingungen der Creative Commons Namensnennung-Weitergabe unter gleichen Bedingungen 2.0 Deutschland veröffentlicht.



Die Startseite Das Türchen vom 2. Dez. 2006