Liederbuch/ Hänsel und Gretel/ Gitarrentabulatur

Aus Wikibooks
Zur Navigation springen Zur Suche springen

Hänsel und Gretel - einfach[Bearbeiten]

Ein Lied mit nur 5 Tönen G A H C D. Als Begleitung nur 2 Akkorde G-Dur und D-Dur mit F# im Bass. (Es ist das selbe F# wie auf der hohen E-Saite, nur 2 Oktaven tiefer gesetzt.) Wenn die Note H beim D/F# in der Melodie mit auftaucht, greift man den D/F# nur mit dem Mittel- und Ringfinger. Die H-Saite bleibt leer. Eigentlich erhält man so einen D6/F#. Da es sich aber bei dem H um einen Melodieton handelt, wird dieses Interval (6) üblicherweise nicht mit angegeben. Zeige- und Ringfinger sind bei dem D/F# frei, und können jederzeit einspringen, wenn sie für die Melodie benötigt werden.

     D7              D6/F#            D7/F#
|---|-R-|---|-   X---|---|---|-   X---|---|---|-
|-Z-|---|---|-   |---|---|---|-   |-Z-|---|---|-
|---|-M-|---|-   |---|-R-|---|-   |---|-R-|---|-
|---|---|---|-   |---|---|---|-   |---|---|---|-
|---|---|---|-   |---|---|---|-   |---|---|---|-
x---|---|---|-   |---|-M-|---|-   |---|-M-|---|-

Versuche, diese 5 Noten auch im Notenbild zu lesen und dann vom Blatt zu spielen. Bei normalen Zupfmustern spielt man üblicherweise den Basston zuerst an, und spielt spielt dann einen Begleitton im Wechselbass. Wie du hier hören kannst, ist es aber durchaus möglich, auch mit einem anderen Akkordton zu beginnen, und den Grundton in den Wechselbass zu legen. Nur bei der Tonika (dem Hauptakkord) sollte man versuchen immer den Grundton zuerst im Bass zu haben. Die Akkordbegleitung macht ansonsten keine Probleme.

Bei der zweiten Version wurde jeweils die erste Note im Takt um einen Achtel Wert gekürzt. Die ersten Noten müssen also einen Tick flotter gesungen werden. Der Rest des Taktes behält seine normalen Notenwerte. Sie geraten jedoch auf die unbetonten Zählzeiten des Taktes. Wenn man sich den Rhythmus des Lagerfeuerschlages ins Gedächtnis ruft, dann wird man feststellen, dass die synkopierte Version des Liedes gar nicht so weit weg davon ist. Wenn man es ein zwei mal gehört hat, lässt es sich problemlos singen und spielen. Die Kunst wird es später einmal sein, ein Lied synkopiert zu zupfen, obwohl die Notenvorlage immer brav auf den Zählzeiten ist. (Also so, wie bei den Vorlagen in den Liederbüchern.)

  G                         D(6)/F#         G
|-------------|-------------|-------------|---------------|
|-3-----0--1--|-3-----0-----|----------0--|---------------|
|-------------|----------0--|-2--2--2-----|-0-------------|
|----0-----0--|----0-----0--|----0-----0--|----0-----0----|
|-------------|-------------|-------------|---------------|
|-3-----3-----|-3-----3-----|-2-----2-----|-3-----3-------|

  G                           D/F#          G
|-------------|-------------|-------------|-------------|
|-3-----0--1--|-3-----0-----|----------0--|-------------|
|-------------|----------0--|-2--2--2-----|-0--------0--|
|----0-----0--|----0-----0--|----0-----0--|----0-----0--|
|-------------|-------------|-------------|-------------|
|-3-----3-----|-3-----3-----|-2-----2-----|-3-----3-----|

  D/F#          D7/F#         G
|-------------|-------------|-------------|-------------|
|----------0--|-1-----------|-0-----0--1--|-3-----------|
|-2--2--2-----|-------2--2--|----2--------|-------------|
|----0-----0--|----0-----0--|----0-----0--|----0-----0--|
|-------------|-------------|-------------|-------------|
|-2-----2-----|-2-----2-----|-3-----3-----|-3-----3-----|

  G                           D/F#          G
|-------------|-------------|-------------|------------|
|-3-----0--1--|-3-----0-----|----------0--|------------|
|-------------|----------0--|-2--2--2-----|-0----------|
|----0-----0--|----0-----0--|----0-----0--|----0-------|
|-------------|-------------|-------------|------------|
|-3-----3-----|-3-----3-----|-2-----2-----|-3-----3----|

hier das "Picking_Haensel_und_Gretel_einfach" anhören (info)

Crystal Clear mimetype pdf.png hier das PDF zum "Picking_Haensel_und_Gretel_einfach" mit Noten und Tabulatur herunterladen (info)


HÄNSEL UND GRETEL synkopiert[Bearbeiten]

mit synkopierter Melodie

hier das "Picking_Haensel_und_Gretel_synkopiert" anhören (info)

Crystal Clear mimetype pdf.png hier das PDF zum "Picking_Haensel_und_Gretel_synkopiert" mit Noten und Tabulatur herunterladen (info)


  G                               D/F#             G
|---------------|---------------|----------------|---------------|
|-3----0---1----|-3----0--------|-----------0----|---------------|
|---------------|----------0----|-2-0---2--------|-0----0--------|
|----0-------0--|----0-------0--|-----0-------0--|----0-----0----|
|---------------|---------------|----------------|------------2--|
|-3------3------|-3------3------|-2-------2------|-3------3------|
  1  2 + 3 + 4    1  2 + 3 + 4    1 + 2 + 3 + 4    1  2 + 3 + 4

  G                               D/F#             G
|---------------|---------------|----------------|---------------|
|-3----0---1----|-3----0--------|-----------0----|---------------|
|---------------|----------0----|-2-0---2--------|-0----0-----0--|
|----0-------0--|----0-------0--|-----0-------0--|----0-----0----|
|---------------|---------------|----------------|------------2--|
|-3------3------|-3------3------|-2-------2------|-3------3------|
  1  2 + 3 + 4    1  2 + 3 + 4    1 + 2 + 3 + 4    1  2 + 3 + 4

  D/F#                             G
|----------------|---------------|----------------|---------------|
|-----------0----|-1-------------|-0-----0---1----|-3-------------|
|-2-2---2--------|------2---2----|---2------------|------0--------|
|-----0-------0--|----0-------0--|-----0-------0--|----0-----0----|
|----------------|---------------|----------------|------------2--|
|-2-------2------|-2------2------|-3-------3------|-3------3------|
  1 + 2 + 3 + 4    1  2 + 3 + 4    1 + 2 + 3 + 4    1  2 + 3 + 4

  G                               D/F#             G
|---------------|---------------|----------------|---------------|-----|
|-3----0---1----|-3----0--------|-----------0----|---------------|-----|
|---------------|----------0----|-2-0---2--------|-0----0--------|-----|
|----0-------0--|----0-------0--|-----0-------0--|----0-----0----|-----|
|---------------|---------------|----------------|------------2--|-----|
|-3------3------|-3------3------|-2-------2------|-3------3------|-3---|
  1  2 + 3 + 4    1  2 + 3 + 4    1 + 2 + 3 + 4    1  2 + 3 + 4    1
verwendete Akkorde bzw. Akkordfragmente
G-Dur
E ||---|---|---|      ||---|---|---|
H ||-C-|---|-D-|      ||-Z-|---|-K-|
G ||---|-A-|---|      ||---|-M-|---|
D ||---|---|---|      ||---|---|---|
A ||---|---|---|      ||---|---|---|
E ||---|---|-G-|      ||---|---|-R-|

D/F# (D-Dur mit F# im Bass) bzw. D7/F#
E ||---|---|---|      ||---|---|---|
H ||-C-|---|---|      ||-Z-|---|---|
G ||---|-A-|---|      ||---|-R-|---|
D ||---|---|---|      ||---|---|---|
A ||---|---|---|      ||---|---|---|
E ||---|-F#|---|      ||---|-M-|---|