Gitarre: Aufgaben zu Powerchords und Oktavgriffen

Aus Wikibooks
Zur Navigation springen Zur Suche springen


Hausaufgabe[Bearbeiten]

  • Übertrage das Oktavgriff-Pattern auf alle Saiten, so wie du es bei den Powerchords gelernt hast,
  • Versuche die Oktavgriffe und Powerchords auch horizontal über das Griffbrett zu verteilen,
  • Übe auch, einfach Melodien mit Hilfe der Oktav-Griffe und Powerchords zu spielen.
  • Akkordfolge D - A - Bm - G als Powerchords D5 A5 B5 G5 (einfach und mit Grundton-Verdopplung)
  • z.B. YT   With or Without You (U2)
Crd D5 x577xx.svgCrd A5 577xxx.svgCrd B5 799xxx.svgCrd G5 355xxx.svg

Powerchord_D5A5B5G5.mid (info)

    D(5)              A(5)              B(5)              G(5)
||------------------|-----------------|-----------------|-----------------||
||o-----------------|-----------------|-----------------|----------------o||
||------------------|-----------------|-----------------|-----------------||
||--7-7-7-7-7-7-7-7-|-----------------|-----------------|-----------------||
||o-5-5-5-5-5-5-5-5-|-7-7-7-7-7-7-7-7-|-9-9-9-9-9-9-9-9-|-5-5-5-5-5-5-5-5o||
||------------------|-5-5-5-5-5-5-5-5-|-7-7-7-7-7-7-7-7-|-3-3-3-3-3-3-3-3-||

    D(5)              A(5)              B(5)              G(5)
||------------------|-----------------|-----------------|------------------||
||o-----------------|-----------------|-----------------|-----------------o||
||--7-7-7-7-7-7-7-7-|-----------------|-----------------|------------------||
||--7-7-7-7-7-7-7-7-|-7-7-7-7-7-7-7-7-|-9-9-9-9-9-9-9-9-|-5-5-5-5-5-5-5-5--||
||o-5-5-5-5-5-5-5-5-|-7-7-7-7-7-7-7-7-|-9-9-9-9-9-9-9-9-|-5-5-5-5-5-5-5-5-o||
||------------------|-5-5-5-5-5-5-5-5-|-7-7-7-7-7-7-7-7-|-3-3-3-3-3-3-3-3--||

Möchte man diese Akkordfolge einen Ton höher in E-Dur spielen, so muss man einfach nur jeden einzelnen Powerchord um 2 Bünde nach rechts verschieben.

    E(5)              H(5)              C#(5)                    A(5)
||------------------|-----------------|-------------------------|------------------||
||o-----------------|-----------------|-------------------------|-----------------o||
||------------------|-----------------|-------------------------|------------------||
||--9-9-9-9-9-9-9-9-|-----------------|-------------------------|------------------||
||o-7-7-7-7-7-7-7-7-|-9-9-9-9-9-9-9-9-|-11-11-11-11-11-11-11-11-|-7-7-7-7-7-7-7-7-o||
||------------------|-7-7-7-7-7-7-7-7-|--9--9--9--9--9--9--9--9-|-5-5-5-5-5-5-5-5--||

    E(5)              H(5)              C#(5)                    A(5)
||------------------|-----------------|-------------------------|------------------||
||o-----------------|-----------------|-------------------------|-----------------o||
||--9-9-9-9-9-9-9-9-|-----------------|-------------------------|------------------||
||--9-9-9-9-9-9-9-9-|-9-9-9-9-9-9-9-9-|-11-11-11-11-11-11-11-11-|-7-7-7-7-7-7-7-7--||
||o-7-7-7-7-7-7-7-7-|-9-9-9-9-9-9-9-9-|-11-11-11-11-11-11-11-11-|-7-7-7-7-7-7-7-7-o||
||------------------|-7-7-7-7-7-7-7-7-|--9--9--9--9--9--9--9--9-|-5-5-5-5-5-5-5-5--||
Hoch zum Seitenanfang Hoch zum Seitenanfang