Gitarre: Zupfen im Basslauf 1

Aus Wikibooks
Zur Navigation springen Zur Suche springen
Folkdiplom.gif

Lektion F
Zupfen im Basslauf
[Bearbeiten]

Bevor man an das letzte Zupfmuster aus dieser Serie herangeht, sollte man nochmal ein paar der vorhergehenden Zupfmuster wiederholen und bei diesen einen Basslauf einbauen.

3/4-Takt mit Basslauf (Taktweise)[Bearbeiten]

   C           C/H          Am          '
   1  2   3    1   2   3    1  2   3    1   2   3 
|-----0---0--|-----0---0--|-----0---0--|-----0---0--|
|-----1---1--|-----1---1--|-----1---1--|-----1---1--|
|-----0---0--|-----0---0--|-----2---2--|-----2---2--|
|------------|------------|------------|-2----------|
|-3----------|<2>---------|-0----------|------------|
|------------|------------|------------|------------|
               M

  F            '            G            '
|-----1---1--|-----1---1--|-----3---3--|-----3---3--|
|-----1---1--|-----1---1--|-----0---0--|-----0---0--|
|-----2---2--|-----2---2--|-----0---0--|-----0---0--|
|-3----------|------------|------------|------------|
|------------|-0----------|------------|-2----------|
|------------|------------|-3----------|------------|


Es handelt sich hier immernoch um die einfache Akkordfolge C-Am-F-G Jeder Akkord wird zwei Takte ausgehalten. Doch anstatt sich jedesmal zu wiederholen, wird bei jedem zweiten Akkord ein Wechselbass eingebaut. (aufs Hochkomma achten!)

Dieses ist auch wieder eine gute Vorübung um die Töne der C-Dur-Tonleiter zu lernen.

Den Themenbereich C-Dur-Tonleiter in den ersten drei Bünden vertiefen...


Bei Am und G ist der Wechselbass die nächst tiefere Saite und bei F die nächst höhere Saite. (F wird hier nicht als Barré gegriffen!)

Nur beim C bauen wir keinen Wechselbass ein, sondern einen kleinen Basslauf. Der Ton läuft vom C über das H zum A. Also wandert man hier bei den Basstönen einfach die Tonleiter runter.

Gegriffen wird das H einfach mit dem Mittelfinger, der normalerweise für den C-Akkord gebraucht wird. Da man aber die dritte Basssaite gar nicht anzupft, kann man diesen ruhig eine Saite höher bewegen. (Es hilft sich vorzustellen: "Das klingt ein wenig wie Em...") Der Zeigefinger bleibt an seinem Platz. Der Ringfinger wird gerade nicht gebraucht und schwebt so lange in der Luft, biss er wieder für den A-Moll gebraucht wird.

Cord animiert C CH Am F G.gif
Picking D Z M R D2 Z M R.svg


Ein Lied, das wie geschaffen für diese Bassfigur ist:

C - Am - F - G
C Sag mir, wo die Am Blumen sind, F wo sind sie ge- G blieben?
C Sag mir, wo die Am Blumen sind, F was ist ge- G scheh'n?
C Sag mir, wo die Am Blumen sind, F Mädchen pflückten G sie geschwind.
F Wann wird man's C je versteh'n, F wann wird man G je ver-
C stehn. Am - F - G


und zum Schluss noch was für die Mutigen

Picking D ZMR D2 ZMR.svg


Hier kommt meiner Meinung am besten die Basslinie heraus.