Gitarre: Picking-Travis-Pattern

Aus Wikibooks
Zur Navigation springen Zur Suche springen


Für das nächste 3-Finger-Picking sollte man noch einmal das Blueszupfen wiederholen. Mit dem Blues-Picking übt man noch einmal den "Pinch", also das gleichzeitige zupfen des Daumen mit einem weiteren Finger (hier der Mittelfinger).

wir hatten das Basis-Pattern
    1 + 2 +   3 + 4 +           1 + 2 +   3 + 4 +
||--------2-:-------2--||   ||--------M-:-------M--||
||----3-----:---3------||   ||----Z-----:---Z------||
||------2---:-----2----||   ||------D---:-----D----||
||--0-------:-0--------||   ||--D-------:-D--------||
||----------:----------||   ||----------:----------||
||----------:----------||   ||----------:----------||
und das Folk-Pattern
    1   2 +   3 + 4             1   2 +   3 + 4  
||--------2-:----------||   ||--------M-:----------||
||----------:---3------||   ||----------:---Z------||
||------2---:-----2----||   ||------D---:-----D----||
||--0-------:-0--------||   ||--D-------:-D--------||
||----------:----------||   ||----------:----------||
||----------:----------||   ||----------:----------||

Nehmen wir das vordere Teil vom Basis-Pattern, und bauen da auf der "1" den Pinch ein.

erste Hälfte des Basis-Pattern
    1 + 2 +   3 + 4 +           1 + 2 +   3 + 4 +
||--2-----2-:----------||   ||--M-----M-:----------||
||----3-----:----------||   ||----Z-----:----------||
||------2---:----------||   ||------D---:----------||
||--0-------:----------||   ||--D-------:----------||
||----------:----------||   ||----------:----------||
||----------:----------||   ||----------:----------||

Den hinteren Teil nehmen wir vom Folk-Pattern

    1 + 2 +   3 + 4             1 + 2 +   3 + 4
||----------:----------||   ||----------:----------||
||----------:---3------||   ||----------:---Z------||
||----------:-----2----||   ||----------:-----D----||
||----------:-0--------||   ||----------:-D--------||
||----------:----------||   ||----------:----------||
||----------:----------||   ||----------:----------||

Beide Hälften kann man noch einmal getrennt üben. Dabei ist wieder auf das richtige Zählen zu achten. Die erste Hälfte: "1+ 2+ 1+ 2+" und in der zweiten Hälfte "3+ 4_ 3+ 4_".

Zusammengebaut ergibt dieses das Travis-Picking

Travis-Picking 1a.svg

Travis-Picking-Etüde[Bearbeiten]

Nach dem Blues als Einleitung brauchen wir gar nicht lange zu üben sondern beginnen sofort mit dem Picking-Stück Akkorde wie das letzte mal...

Travis-Picking-Etude.mid (info)

Crystal Clear mimetype pdf.png Travis-Picking-Etude.pdf (info)


Auch hier habe ich wieder eine kleine Erweiterung, um die Etüde noch etwas interessanter zu gestalten, und natürlich um das Folk- und Basis-Picking nicht aus den Augen zu verlieren.

    C6add9            Em7/B             G               D
||--------0-------0-|-------0-------0-|-----(3)-------|------2----------||
||----3-------3-----|---3-------3-----|------3--------|----------3------||
||------2-------2---|-----0-------0---|----0----------|----2-------2----||
||------------------|-----------------|------------0--|-0------0--------||
||-<3>-----<3>------|<2>-----<2>------|--------0h2----|-----------------||
||------------------|-----------------|-3-------------|-----------------||
Takt1

Wir kommen vom D-Dur-Akkord. Von diesem Akkord aus bewegen wir nur den Mittelfinger auf die Position, wo normalerweise der Grundton vom C-Dur-Akkord ist. Wie der C6add9 zu seinen Namen kommt, könnte man sich zwar abzählen, (wie wir es vorher gelernt haben), aber es ist für diese kleine Erweiterung der Etüde nicht unbedingt nötig.

Takt2

Für den Em7 bewegen wir den Zeigefinger auf den Basston vom H. Der Ringfinger rührt sich nicht von seinem Platz. Der Mittelfinger verschwindet für einen Moment. Es ist zwar nicht der Fingersatz, den wir für den Em7 gelernt haben, aber hier in dieser Situation ist er mal ganz praktisch.

Takt3

Zum Abschluss der Bewegung spielen wir ein G-Dur-Akkord, wo wir noch ein Hammer-On einbauen, so wie wir es in einen der letzten Lektionen gelernt haben. . Ob man dabei den kleinen Finger noch auf der D-Saite belässt, oder ob man den G-Dur-Akkord so greift wie man ihn gewohnt ist, das sei jedem selbst überlassen. Jedenfalls ähnelt dieser Takt sehr stark dem Folkpattern.

Takt4

Wir enden das Ganze mit dem D-Dur-Akkord und dem Folk-Picking, und wiederholen diesen Teil noch einmal. Wenn man den letzten Teil nicht ganz so schnell hinbekommt, und diesen etwas langsamer spielen muss, um dabei seine Finger zu sortieren, dann stört dieses hier überhaupt nicht.

Natürlich kann man die komplette Etüde so oft wiederholen, wie man nur möchte.


Viel Spaß beim Üben!

Übung[Bearbeiten]

Versuche mal das Travis-Picking mit folgender Akkordfolge. Alle Akkorde wurden (bzw. werden) hier im Balladendiplom vorgestellt.

C = x32010 Cj7 = x32000 Cadd9 = x32030 C = x32010
Asus2 = x02200 Asus4 = x02230 Am = x02210 Asus2 = x02200
Cadd9 = x32030 C = x32010 Cj7 = x32000 Cadd9 = x32030
Am = x02210 Asus2 = x02200 Asus4 = x02230 Am - G/H

Du hast nur 2 Akkorde. C und Am. Auf der H-Saite kommt eine Bewegung hinzu. Dort erden nacheinander die Töne C (mit dem Zeigefinger gegriffen) H (leere Saite) D (mit dem kleinen Finger gegriffen) jeden Takt gewechselt. Weil die Töne alle drei Takte wechseln aber die Grundakkorde alle 4 Takte entsteht ein wirklich reizvoller Effekt.

Hoch zum Seitenanfang Hoch zum Seitenanfang