Gitarre: eine II-V-I-Verbindung mit einfachen Akkorden

Aus Wikibooks
Zur Navigation springen Zur Suche springen
Wikibooks buchseite.svg Zurück zu Buch Gitarre (Inhaltsübersicht) | One wikibook.svg Hoch zu Jazz-Workshop-Lektionen | Wikibooks buchseite.svg Vor zu Was ist eine II-V-I-Verbindung

Jazzworkshop für Gitarre (Lektion 1a)[Bearbeiten]

Zu Anfang eine kleine Übung

Zupfmuster
   1 . 2 + 3 . 4 + 
||-----R-------R---||
||-----M-------M---||
||-----Z-------Z---||
||-----------------||
||-D-----D-D-----D-||
||-----------------||
II-V-I-Kombination mit einfachen Akkorden
    Am7            D7             Gmaj7
||-----0------0--|----2------2--|----2------2--|----2------2----||
||o----1------1--|----1------1--|----0------0--|----0------0---o||
||-----0------0--|----2------2--|----0------0--|----0------0----||
||---------------|-0----0-0---0-|--------------|----------------||
||o-0----0-0---0-|--------------|--------------|---------------o||
||---------------|--------------|-3----3-3---3-|-3----3-3---3---||


    Em7            A7             Dmaj7
||-----0------0--|----0------0--|----2------2--|----2------2----||
||o----3------3--|----2------2--|----2------2--|----2------2---o||
||-----0------0--|----0------0--|----2------2--|----2------2----||
||--2----2-2---2-|--------------|-0----0-0---0-|-0----0-0----0--||
||o--------------|-0----0-0---0-|--------------|---------------o||
||---------------|--------------|--------------|----------------||


    Dm7            G7             Cmaj7                         (D.C.)
||-----1------1--|----1------1--|----0------0--|----0------0---||---*| 
||o----1------1--|----0------0--|----0------0--|----0------0--o||---*| 
||-----2------2--|----0------0--|----0------0--|----0------0---||---*| 
||--0----0-0---0-|--------------|--------------|---------------||---*| 
||o--------------|--------------|-3----3-3---3-|-3----3-3---0-o||---*| 
||---------------|-3----3-3---3-|--------------|---------------||---*| 
Legende
  Wiederholung     Taktstrich     (D.C.) = da Capo = Noch mal von vorn
||--         --||      -|-          R    = Ringfinger
||o-         -o||      -|-          M    = Mittelfinger
||--   ...   --||      -|-          Z    = Zeigefinger
||--         --||      -|-          D    = Daumen
||o-         -o||      -|-         -3-   = Finger 3. Bund 
||--         --||      -|-         -0-   = leere Saite
 
  • Jede Zeile so lange üben, bis sie fließend gespielt werden kann
  • dann alle Zeilen hintereinander spielen, wobei jede Zeile genau einmal wiederholt wird
  • Am Schluss wieder von vorn beginnen (D.C.) ...
  • irgendeine Melodie frei improvisiert darüber summen