Gitarre: Melodiepicking - Laterne

Aus Wikibooks
Zur Navigation springen Zur Suche springen


Laterne[Bearbeiten]

Für dieses Lied benötigt man tatsächlich nur einen Akkord und für die Melodie nur 4 Noten! Ein noch einfacheres Lied für den Einstieg dürfte sich kaum finden lassen.

Da nur der Akkord G-Dur verwendet wird, stehen die Namen der Melodie-Noten (eingeklammert) darüber. Bei nur 4 Noten kann man damit anfangen, diese auch im Notenbild (und nicht nur in der Tabulatur) herauszulesen.

Praktisch gesehen greift man den G-Dur-Akkord, hebt den kleinen Finger an, und setzt ihn jedesmal beim "D" eine Saite höher auf, als es beim G-Dur-Akkord üblich ist. Für den Einstieg wird noch nichts synkopiert.

|---0--||-----------0--|-------------|----------0--|--------------|
|------||o-3-----0-----|-3-----0-----|-3--3--0-----|-3-----0----0-|
|------||--------------|-------------|-------------|----------0---|
|------||-----0-----0--|----0-----0--|----0-----0--|----0-----0---|
|------||o-------------|-------------|-------------|--------------|
|------||--3-----3-----|-3-----3-----|-3-----3-----|-3-----3------|

|--------------|--------------|--------0--0-0-|----------0---||------------*|
|-3--3--0----0-|-3--3--0----0-|-3--3-3--------|-3--3--0-----o||-3--3--0----*|
|----------0---|----------0---|---------------|--------------||------------*|
|----0-----0---|----0-----0---|----0------0---|----0-----0---||----0-------*|
|--------------|--------------|---------------|-------------o||------------*|
|-3-----3------|-3-----3------|-3------3------|-3-----3------||-3-----3----*|

hier das "Picking_Laterne_sehr_einfach" anhören (info)

Crystal Clear mimetype pdf.png hier das PDF zum "Picking_Laterne_sehr_einfach" mit Noten und Tabulatur herunterladen (info)


Hoch zum Seitenanfang Hoch zum Seitenanfang